Yeh Fitoor Mera (Fitoor)

Artist Arijit Singh
Tabbed by Adit Kundra
Tuning Standard (EADGBE)
Tricky Chords – Asus2 (x02200), Bsus4 (x24400), E5 (022xxx), F#5 (133xxx), A5 (577xxx), B5 (799xxx)
Strumming – D D D D DUDU
Capo – No

 

CLICK HERE for the Video Tutorial

 

e|---------9--7-------------------9--7---------------------7--------|
B|--7--10-------10--9------7--10-------10--9---9--10---10-----5--7--|
G|------------------------------------------------------------------|
D|------------------------------------------------------------------|
A|------------------------------------------------------------------|
E|------------------------------------------------------------------|

 

e|-------------0----------------------------------------|
B|----------0----0--------------------------------------|
G|-------2---------2------------------------------------|
D|----4-------------------------------------------------|
A|------------------------------------------------------|
E|------------------------------------------------------|

 

F#5  A5  F#5  E5    
F#5 G#5 A5 B5 E5 F#5    

 

F#m          Asus2           Bsus4
Zindagi ne ki hai kaisi saazishein
F#m         Asus2           Bsus4
Poori hui dil ki wo farmaishein
F#m                     Asus2               E          Bsus4
Maangi duaa ek tujh tak jaa pahunchi, Parvardigara, parvardigara
F#m                 Asus2          E          Bsus4
Kaisi suni tune meri khamoshi, O parvardigara

 

         D     E                Asus2           Bsus4
Ye fitoor mera laaya mujhko hai tere kareeb      
              D     E          Asus2   Bsus4
Ye fitoor mera rehmat teri        
         D     E      Asus2           Bsus4
Ye fitoor mera maine badla re mera naseeb
            D     E          Asus2           Bsus4
Ye fitoor mera chaahat teri, O parvardigara, parvardigara

 

F#m           Asus2           Bsus4
Dheeme dheeme jal rahi thi khwaishein
F#m            Asus2           Bsus4
Dil mein dabi, ghut rahi farmaaishein
F#m              Asus2         E          Bsus4
Banke dhuaan wo, Tujh tak jaa pahunchi, parvardigara..
F#m               Asus2      E          Bsus4
Deewangi ki hadd maine nochi o parvardigara

 

         D     E                Asus2           Bsus4
Ye fitoor mera laaya mujhko hai tere kareeb      
              D     E          Asus2   Bsus4
Ye fitoor mera rehmat teri        
         D     E      Asus2           Bsus4
Ye fitoor mera maine badla re mera naseeb
            D     E          Asus2           Bsus4
Ye fitoor mera chaahat teri, O parvardigara, parvardigara

 

 Bsus4 Asus2 Bsus4  F#m
Asus2 Bsus4  D F#m 
Asus2 E  D F#m 
Asus2 E  F#m Asus2
Bsus4

 

         D     E                Asus2           Bsus4
Ye fitoor mera laaya mujhko hai tere kareeb      
              D     E          Asus2   Bsus4
Ye fitoor mera rehmat teri        
         D     E      Asus2           Bsus4
Ye fitoor mera maine badla re mera naseeb
            D     E          Asus2           Bsus4
Ye fitoor mera chaahat teri, O parvardigara, parvardigara

Leave a Reply

Your email address will not be published. Required fields are marked *