fbpx

Ve Maahi (Kesari)

Artist – Arijit Singh
Tuning – Standard (EADGBE)
Tricky Chords – Cadd9 (x32310)
Strumming – D DU UD UD DUDU
Capo – No

 

 

(Intro Guitar Riff)

e|---0--0----0--0----0--0---------0---|
B|---1--1----1--1----1--1---3p1---1---|
G|---------2--------------------------|
D|------------------------------------|
A|-3---------------3------------------|
E|------------------------------------|
e|------------------------------------|
B|-----1----1---3---1-------1---------|
G|---------------------0h2------------|
D|------------------------------------|
A|-3-3----3---3---3-------------------|
E|------------------------------------|

(Song Tabs)

e|------------------------------------|
B|--/5--3--5----/3--------------------|
G|------------------5---2--2/5--------|
D|------------------------------------|
A|------------------------------------|
E|------------------------------------|
e|--------------------3--3------------|
B|--------------3---3-----------------|
G|-2--5-5-5-5-5---5-------------------|
D|------------------------------------|
A|------------------------------------|
E|------------------------------------|

 

e|------------------------------------| 
B|----6-5-3-1-1-3/5-3-1-1-------------| 
G|------------------------------------| 
D|------------------------------------| 
A|------------------------------------| 
E|------------------------------------|

e|------------------------------------|
B|-------------------/3---------------|
G|--/5-4--2-2-2-2-------5-4-2-0-0-----|
D|------------------------------------|
A|------------------------------------|
E|------------------------------------|
e|------------------------------------|
B|--------------------3---------------|
G|--0--2--2--4--4--5-----5--5---------|
D|------------------------------------|
A|------------------------------------|
E|------------------------------------|
e|--------------------3--3------------|
B|--------------3---3-----------------|
G|-2--5-5-5-5-5---5-------------------|
D|------------------------------------|
A|------------------------------------|
E|------------------------------------|

 e|------------------------------------| 
B|----6-5-3-1-1-3/5-3-1-1-------------| 
G|------------------------------------| 
D|------------------------------------| 
A|------------------------------------| 
E|------------------------------------|


e|------------------------------------|
B|--/5--3--5----/3--------------------|
G|------------------5---2--2/5--------|
D|------------------------------------|
A|------------------------------------|
E|------------------------------------|
(Shehnai)
e|-------------------------------15---|
B|------13-13-13-13-13--15-13-15------|
G|--/14-------------------------------|
D|------------------------------------|
A|------------------------------------|
E|------------------------------------|
e|--15-13-12--------------12----------|
B|-----------15-13-13-15-----15-13-13-|
G|------------------------------------|
D|------------------------------------|
A|------------------------------------|
E|------------------------------------|

 

C Cadd9 C                       

C Cadd9 C

C Cadd9 C       (Play the pattern continuously)

O maahi ve,  o maahi ve
Mahi mainu chhadyo naa
Ke tere bin dil naiyo lagna
Jithe ve tu chalna ae
Maahi main tere pichhe pichhe chalna
Tu jee sakti nahi
Main jee sakta nahi
Koi dusri main sharta ve rakhta nahi
Kya tere baju mera

 

C                             Am
Sachiyan mohabbata ve
                          F                      G
O maahi kithe aur naiyo milna
(Kithe aur naiyo milna)
C                             Am
Jithe ve tu chalna han
                        F                      G
Mahi main tere pichhe pichhe chalna
(Pichhe pichhe chalna)

 

C Cadd9 C 
O maahi ve, o maahi ve
C Cadd9 C 
Dil vich tere yaara mainu rahne de
Aankhon se yeh aankhon wali gal kahne de

 

C                                   G
Dil vich tere yaara mainu rahne de
Am                                          Em
Aankhon se yeh aankhon wali gal kahne de
C Cadd9 C 
Dhadkan dil di ae tainu pahchane
Tu mera hai main hun teri rab bhi yeh jane

 

          F                                   
Tu rah sakti nahi
              G
Main rah sakta nahi
         F                                G                 
Tere bin yaara hor kithe takda nahi
   F               G       C
Kya tere baju mera

 

C                             Am
Rang tera chhadya ve
                          F                      G
Ke hund koi rang naiyo chadna
(Rang naiyo chadna)

 

C                             Am
Jithe ve tu chalna han
                          F                      G
Maahi main tere pichhe pichhe chalna
(Pichhe pichhe chalna)

C                             Am
Maahi mainu chhadiyo na
                          F                      G

Ke tere bina dil naiyo lagna

C                             Am
Jithe ve tu chalna han
                          F                      G
Maahi main tere pichhe pichhe chalna

 

C                             Am
Maahi mainu chhadiyo na
                          F                      G

Ke tere bina dil naiyo lagna

C                             Am
Jithe ve tu chalna han
                          F                      G
Maahi main tere pichhe pichhe chalna
Liked it? Take a second to support Adit on Patreon!

Leave a Reply

Your email address will not be published. Required fields are marked *