Vaaste (Dhvani Bhanushali, Nikhil D’Souza)

Artist – Dhvani Bhanushali, Nikhil D’Souza
Tuning – Standard (EADGBE)
Capo – No

 

(Song tabs)

 

e|----------------------------------|
B|----------------------------------|
G|-/5-3-2--5-3-2---5-3-2-0-5-3-2----|
D|----------------------------------|
A|----------------------------------|
E|----------------------------------|


e|----------------------------------| 
B|----------------------------------| 
G|------3--2-----2------------------| 
D|--3-5------5-3-----5--3--3--------| 
A|----------------------------------| 
E|----------------------------------| 


e|----------------------------------| 
B|----------------------------------| 
G|-/5-3-2--5-3-2---5-3-2-0-5-3-2----| 
D|----------------------------------| 
A|----------------------------------| 
E|----------------------------------|


e|----------------------------------| 
B|----------------------------------| 
G|------3--2-----2------------------| 
D|--3-5------5-3-----5--3--3--------| 
A|----------------------------------| 
E|----------------------------------| 


e|----------------------------------| 
B|----------------------------------| 
G|---------2------------------------| 
D|-----/5-----5-3-3-3-3-3-----------| 
A|----------------------------------| 
E|----------------------------------|  X2


e|----------------------------------| 
B|----------------------------------| 
G|-----2------------5--5-5-5--------| 
D|--/5----5-3-3-3-5-----------------| 
A|----------------------------------| 
E|----------------------------------| 


e|----------------------------------| 
B|----------------------------------| 
G|-/5-3-2--5-3-2---5-3-2-0-5-3-2----| 
D|----------------------------------| 
A|----------------------------------| 
E|----------------------------------|


e|----------------------------------| 
B|----------------------------------| 
G|------3--2-----2------------------| 
D|--3-5------5-3-----5--3--3--------| 
A|----------------------------------| 
E|----------------------------------| 

Vaaste jaan bhi dun
main gawaa imaan bhi dun
kismaton ka likha mod dun
badle mein main tere
jo khuda khud bhi de
jannatein, sach kahun chhod dun

tumse zyada main na janu
tumse khudko main pehchanu
tumko bas main apna maanu,
mahiya (x2)

vaaste jaan bhi dun
main gawaa imaan bhi dun
qismaton ka likha mod dun

tere alawa koi bhi khwahish
nahi hai baaki dil mein
kadam uthaun jahan bhi jaun
tujhi se jaun mil main (x2)

tere liye.. mera safar..
tere bina.. main jaaun kidhar

tumse zyada main na jaanu
tumse khudko main pehchaanu
tumko bas main apna maanu
mahiya

vaaste jaan bhi dun
main gawaa imaan bhi dun
qismaton ka likha mod dun

badle mein main tere
jo khuda khud bhi de
jannatein, sach kahoon chhod dun

tu hi savera mera
tu hi kinara mera
tu hi hai dariya mera
khuda ka zariya mera
tujhi se hota shuru ye mera karwan
tujhi pe jaake khatam
ye mera sara jahaan

vaste jaan bhi dun
main gawaa imaan bhi dun
qismaton ka likha mod doon

Liked it? Take a second to support Adit on Patreon!

Leave a Reply

Your email address will not be published. Required fields are marked *