Tera Mera Pyar (Kumar Sanu)

Artist Kumar Sanu Tabbed by Adit Kundra Tuning Standard (EADGBE)  


  Tricky Chords – Cadd9 (x32033) Strumming – D D UDUD DUDU
Capo – 4th fret  
  [Intro Riff]

e|---------------------------------------------------------------------------------------|
B|-----------1p0-----------------0-----------------------0-----------------0-------------|
G|--------2-------2--------------0--0--------------0-------0------------------0----------|
D|-----2-------------2--------0--------0--------2-----4-------4------------0-----0-------|
A|--0---------------------5--------------------------------------------2-----------------|
E|----------------------------------------0------------------------7---------------------|

 

e|------------------------2--3---7-------------------------------2----3----7------------|
B|-----------1p0---------------------------------------0--------------------------------|
G|--------2-------2--------------0--------------0--------0-----------------4------------|
D|-----2-------------2----0------------------2-----4--------4---------------------------|
A|--0------------------------------------------------------------2----------------------|
E|---------------------------------------0----------------------------------------------|

 
 

e|------------------------2--3---7-------0----------------------------------------------|
B|-----------1p0-------------------------0----------------------------------------------|
G|--------2-------2--------------0-------0----------------------------------------------|
D|-----2-------------2----0--------------2----------------------------------------------|
A|--0------------------------------------2----------------------------------------------|
E|---------------------------------------0----------------------------------------------|

 
  [Intro – Rhythm] Am D Em Bm       
[Verse 1]
Am           D    Em        Bm                               Pehla yeh pehla, Pyar tera mera sony
Am           D    Em     Bm                              
Pehli yeh mulaqat hai  Am           D     Em                               
Pehli yeh mulaqat hai Am           D            Em         Bm                               Jo keh rahi hai aankhein, Woh keh rahi hai baatein
Am           D         Em  Bm                               Jaagi tu bhi saari raat hai 
Am           D           Em                                Jaagi tu bhi saari raat hai
Am Bm C Bm        Am  D             Em Bm                               Pehla        hai pehla Tera mera pyar
   
[Verse 2]
Am           D      Em        Bm     Am   D                         
Dil Pe chalaaa naa jab zor koi,
Em        Bm      Am        D                              
Dil Pe chalaaa naa jab zor koi,
Em        Bm      Am  D                              
Tu mere Pas aa gayi, 
Em        Bm      Am  D                              
Main tere pas aa gaya
 
Am             D            Em         Bm Pyaasi hai teri saansein, Pyaasi hai meri saansein
Am          D   Em Bm Uspe yeh barsat hai,
Am          D   Em Bm Uspe yeh barsat hai
Am Bm C Bm        Am  D             Em Bm                               Pehla        hai pehla Tera mera pyar
   
[Verse 3]
Am           D      Em        Bm     Am   D                         
Kab se te hum tum, Tanha akele,
Em        Bm         Am  D                              
Kab se te hum tum, Tanha akele,
Em        Bm      Am  D                              
Aaj Tujhe chain mil gayaa,
Em        Bm      Am  D                              
Aaj mujhe chain mil gayaa
 
Am             D            Em         Bm
Baahon mein meri tum, Baahon mein teri hum,  Am          D   Em Bm
Aur yeh Jawaan raat hai,  Am          D   Em Bm
Aur yeh Jawaan raat hai Am Bm C Bm        Am  D             Em Bm                               Pehla        hai pehla Tera mera pyar
   
[Verse 4]
Am           D      Em        Bm     Am   D                         
Ruk si gayi hai, teri meri raahein
Em        Bm        Am       D                              
Ruk si gayi hai, teri meri raahein
Em        Bm      Am  D                              
hum jo saath aa gaye, hai,
Em        Bm      Am  D                                                         
manzil ke pas aa gaye
  Am             D            Em         Bm
Aaye the kahaan se donon?, jaayenge kahaanpe donon? Am          D   Em Bm
Yeh to ab, kise yaad hai Am          D   Em Bm Yeh to ab, kise yaad hai
Am Bm C Bm        Am  D             Em Bm                              
Pehla        hai pehla Tera mera pyar
      Check out the Video Tutorial Here-     Check out the Original Song Here-                

Newsletter

Guitar Chords

A major




Recent Posts


Load More…

Follow on Instagram

You may also like...

Leave a Reply

Your email address will not be published. Required fields are marked *