Tera Ban Jaunga Chords and Tabs From Kabir Singh

Artist – Tulsi Kumar, Akhil Sachdeva,
Tuning – Standard (EADGBE),
Tricky Chords – None,
Strumming – D UDUD D DUDU,
Capo – No

 

CHECK OUT the Video Tutorial HERE

 

(Song tabs)

 

Verse

e|----------------------------------|
B|-----4-7-4-------------4-7-4------|
G|-4-6-------6-4-----4-6------------|
D|----------------------------------|
A|----------------------------------|
E|----------------------------------|


e|--------------------4-------4-----|
B|-------4-7-4---4--7---7---7---7---|
G|--4-6-----------------------------|
D|----------------------------------|
A|----------------------------------|
E|----------------------------------|


e|----------------------------------|
B|-----4-7-4-------------4-7-4------|
G|-4-6-------6-4-----4-6------------|
D|----------------------------------|
A|----------------------------------|
E|----------------------------------|


e|--------------------4-------4-----|
B|-------4-7-4---4--7---7---7---7---|
G|--4-6-----------------------------|
D|----------------------------------|
A|----------------------------------|
E|----------------------------------|

e|----------------------------------|
B|----------------------------------|
G|--4-3--6--4-4-3-3-----------------|
D|------------------6-6--4-4--6--6--|
A|----------------------------------|
E|----------------------------------| X3


e|----------------------------------|
B|----------------------------------|
G|--4-4-4-4-4-----------------------|
D|-------------4/6-6--4-4-----------|
A|----------------------------------|
E|----------------------------------| X2


e|----------------------------------| 
B|----------------------------------| 
G|--4-3--6--4-4-3-3-----------------| 
D|------------------6-6--4-4--6--6--| 
A|----------------------------------| 
E|----------------------------------| X3 


e|----------------------------------| 
B|----------------------------------| 
G|--4-4-4-4-4-----------------------| 
D|-------------4/6-6--4-4-----------| 
A|----------------------------------| 
E|----------------------------------| X2


e|------------------------------| 
B|------------------------------| 
G|------------------------------| 
D|-----1-4-1-----------1-4-1----| 
A|-2-4--------4-2--2-4----------| 
E|------------------------------| 


e|------------------------------| 
B|------------------------------| 
G|-----------------1-----1------| 
D|-----1-4-1---1-4---4-4---4----| 
A|-2-4--------------------------| 
E|------------------------------| 

B    E    G#m   E
B    E    G#m   E

 

B                         E    
Meri raahein tere tak hain
G#m                   E
Tujhpe hi toh mera haq hai
B                      E    
Ishq mera tu beshaq hai
G#m                   E
Tujhpe hi toh mera haq hai

 

          B                                          E   
Saath chhodunga na tere piche aaunga
              G#m                                   E
Chheen lunga ya Khuda se maang laaunga
            B                         C#m  
Tere naal taqdeeran likhwaunga
        G#m            F#
Main tera ban jaaunga
F#
Main tera ban jaaunga

 

 

          B                                          E   
Sonh teri main kasam yehi khaunga
              G#m                                   E
Kitte waadeya nu umra nibhaunga
            B                         C#m  
Tujhe har waari apna banaunga
        G#m            F#
Main tera ban jaaunga
F#
Main tera ban jaaunga

 

G#m   E    B    E 
G#m   E    B    E     
B    F#  C#m  E      
B    F#  C#m  E 

 

B                                           G#m
Lakhaan ton juda main hui teri khaatir
B                                G#m
Tu hi manzil dil tera musaafir
B                                           G#m
Lakhaan ton juda main hoya teri khaatir
B                                   G#m
Tu hi manzil main tera musaafir
B                                C#m
Rab nu bhula betha tere karke
        E              F#
Main ho gaya kaafir

 

        B                                          E   
Tere liye main jahaan se takraunga
              G#m                                   E
Sab kuch khoke tujhko hi paaunga
            B                         C#m  
Dil banke main dil dhadkaunga
        G#m            F#
Main tera ban jaaunga
F#
Main tera ban jaaunga

 

B                         E    
Meri raahein tere tak hain
G#m                   E
Tujhpe hi toh mera haq hai
B                      E    
Ishq mera tu beshaq hai
G#m                   B
Tujhpe hi toh mera haq hai

Liked it? Take a second to support Adit on Patreon!

Leave a Reply

Your email address will not be published. Required fields are marked *