fbpx

Shayad Chords and Tabs from Love Aaj Kal

Artist –Arijit Singh,
Tuning – Standard (EADGBE),
Tricky Chords – Dsus2 (xx0230), Bm7 (X24232),
Strumming – D D U UD DUDU,
Capo – 1st Fret

 

CHECK OUT the Video Tutorial HERE

 

Intro riff

e|---0---------------0--------------| 
B|-----------3-----------------3----| 
G|------0---------------0-----------| 
D|--------------------------0-------| 
A|---3-----3---------3--------------| 
E|----------------------------------| 

e|--------0---------0-----------0---| 
B|------1---------1-----------------| 
G|----0---------0-------------------| 
D|------------4--------------4------| 
A|--0----------------------2--------| 
E|-----------------------0----------|  

 

Song Tabs

e|----------------------------------| 
B|----------------------------------| 
G|--4--7/9--7-7--5-4-5-4--------7-7-| 
D|-----------------------7-5--7-----| 
A|----------------------------------| 
E|----------------------------------|

 

e|----------------------------------| 
B|----------------------------------| 
G|----------------------------------| 
D|--9-7--9-7--9-7--9-7-5-4--5-5-----| 
A|----------------------------------| 
E|----------------------------------|

 

e|----------------------------------| 
B|----------------------------------| 
G|--4--7/9--7-7--5-4-5-4--------7-7-| 
D|-----------------------7-5--7-----| 
A|----------------------------------| 
E|----------------------------------|

 

e|----------------------------------| 
B|----------------------------------| 
G|----------------------------------| 
D|--9-7--9-7--9-7--9-7-5-4--5-5-----| 
A|----------------------------------| 
E|----------------------------------|

 

e|----------------------------------| 
B|----------------------------------| 
G|--4-4/7-7-7\4--4-4-4--4/5-4-2-0-2-| 
D|----------------------------------| 
A|----------------------------------| 
E|----------------------------------|

 

e|----------------------------------| 
B|----------------------------------| 
G|-4-4/7-7-7\9-4--4-4-4-4/5-4-2-0-2-| 
D|----------------------------------| 
A|----------------------------------| 
E|----------------------------------|   

 

e|----------------------------------| 
B|----------------------------------| 
G|---------------------7-7-7--------| 
D|--7-5-7-5-------------------------| 
A|----------7p5-5----5--------------| 
E|----------------------------------|

 

e|----------------------------------| 
B|----------------------------------| 
G|--5-5--5/7--5-4---5p4--2----------| 
D|----------------------------------| 
A|----------------------------------| 
E|----------------------------------|

e|----------------------------------| 
B|----------------------------------| 
G|--4-4/7-7-7\4--4-4-4--4/5-4-2-0-2-| 
D|----------------------------------| 
A|----------------------------------| 
E|----------------------------------|

 

e|----------------------------------| 
B|-8-7-8----------------------------| 
G|--------7\9-4--4-4-4-4/5-4-2-0-2--| 
D|----------------------------------| 
A|----------------------------------| 
E|----------------------------------|   

 

e|----------------------------------| 
B|----------------------------------| 
G|---------------------7-7-7--------| 
D|--7-5-7-5-------------------------| 
A|----------7p5-5----5--------------| 
E|----------------------------------|

 

e|----------------------------------| 
B|----------------------------------| 
G|--5-5--5/7--5-4---5p4--2----------| 
D|----------------------------------| 
A|----------------------------------| 
E|----------------------------------|

Flute Solo

e|----------------------------------| 
B|----------------------------------| 
G|-4-7-9p7--4-7-9p7--4-7-9p7--4-0-2-| 
D|----------------------------------| 
A|----------------------------------| 
E|----------------------------------|

 

e|----------------------------------| 
B|----------------------------------| 
G|-4-7-9p7--4-7--4\2-0-2--0-2-0-7-5-| 
D|----------------------------------| 
A|----------------------------------| 
E|----------------------------------|
e|----------------------------------| 
B|----------------------------------| 
G|-4-7-9p7--4-7-9p7--4-7-9p7--4-0-2-| 
D|----------------------------------| 
A|----------------------------------| 
E|----------------------------------|
e|----------------------------------| 
B|-------------------3--------------| 
G|---4-7-9p7--4-0-2-----------------| 
D|----------------------------------| 
A|----------------------------------| 
E|----------------------------------|  

 

(Intro Riff)

Shayad kabhi na keh sakoon main tumko
Kahe bina samajh lo tum shayad
Shayad mere khayal mein tum ik din
Milo mujhe kahin pe gum shaayad

 

                  Em  G               Dsus2
Jo tum na ho.. rahenge hum nahin
                  Em  G               Dsus2
Jo tum na ho.. rahenge hum nahin
                         Bm7            C                  G
Na chahiye kuch tum se zyada tum se kam nahi

 

                  Em  G               Dsus2
Jo tum na ho.. toh hum bhi hum nahi
                  Em  G               Dsus2
Jo tum na ho.. toh hum bhi hum nahi
                         Bm7            C                  G
Na chahiye kuch tum se zyada tum se kam nahi

 

(Flute Solo)

Em  G  Dsus2  Dsus2  (X4)

 

G                       C
Aankhon ko khaab dena
G                       C
Khud hi sawaal karke
Em                       C
Khud hi jawaab dena
G                 Dsus2
Teri taraf se

 

G                       C
Bin kaam kaam karna
G                       C
Jaana kahin ho chaahe
Em                       C
Har baar hi guzarna
G                  Dsus2
Teri taraf se

 

                Em  G               Dsus2
Ye koshishein toh hongi kam nahin
                Em  G               Dsus2
Ye koshishein toh hongi kam nahin
                         Bm7            C                  G
Na chahiye kuch tum se zyada tum se kam nahi

 

                  Em  G               Dsus2
Jo tum na ho.. toh hum bhi hum nahi
                  Em  G               Dsus2
Jo tum na ho.. toh hum bhi hum nahi
                         Bm7            C                  G
Na chahiye kuch tum se zyada tum se kam nahi

Em  G               Dsus2
Jo tum na ho..
Em  G               Dsus2
Jo tum na ho..
Em  G               Dsus2
Jo tum na ho…

Liked it? Take a second to support Adit on Patreon!

Leave a Reply

Your email address will not be published. Required fields are marked *