Sham (Aisha)

Artist Nikhil D’Souza Tabbed by Adit Kundra Tuning Standard (EADGBE)  


  Tricky Chords – Emaj7 (079897), Aadd9 (577600), Badd11 (799800) Strumming – duDu duDu (Accent on the 3rd strum)
Capo – No  
  [Intro Riff]

e|---12---------11----------9--------5------7----------------------|
B|-----------------------------------------------------------------|
G|-----------------------------------------------------------------|
D|-----------------------------------------------------------------|
A|--------14--------14----------14---------------------------------|
E|---12---------11----------9--------5------7----------------------|


e|-----------------------------------------------------------------------------|
B|-----------------------------------------------------------------------------|
G|-----------------------------------------------------------------------------|
D|--6--6--7--6--------------6--6--7--6----------------7--6-----6---------------|
A|--------------7--9--------------------7--9----------------9-----7---9--------|
E|--------------------7-----------------------7---9----------------------7-----|


e|-----------------------------------------------------------------------------|
B|-----------------------------------------------------------------------------|
G|-----------------------------------------------------------------------------|
D|--6--6--7--6--------------6--6--7--6----------------7--6-----6----------9----|
A|--------------7--9--------------------7--9----------------9-----7---9--------|
E|--------------------7-----------------------7---9----------------------------|


[Intro with riff] E Abm A F#m B       
    [Verse 1]
E               Abm            A                     F#m      B       
Shaam bhi koi, jaise he nadi, Leher leher jaise beh rahi hain
E               Abm     A             F#m      B       
Koi ankahee koi ansuni baat dheeme keh rahi hai
E      Abm          A          F#m      B       
Kahi na kahi jaagi hui hai koi arzo
E      Abm         A                    B       
Kahi na kahi khoye huye se hain main aur tu
    [Chorus]
     E           Emaj7              Add9 Badd11       
Ke boom boom boom para para, Hain khamosh dono
     E           Emaj7              Add9 Badd11      Ke boom boom boom para para, Hain madhosh dono
E                        A             D                    B  Jo gumsum gumsum hain ye fizayein, Jo kehti sunti hain yeh nigahein
E                   A               Am Gumsum gumsum hai yeh fizayein hain na
    [Guitar solo]
E C Bm G D E A B E  
 
[Verse 2]
E               Abm            A               F#m      B       
Suhani suhani,hai ye kahani, Jo khamoshi sunati hai
E               Abm     A             F#m      B       
Jise dur chaha hoga woh mera, Mujhe woh ye batai hai
E               Abm     A             F#m      B       
Mein magan hu par na jaanu, Kab aane wala hai woh pal, jab
E      Abm         A                    B       
Holein holein dhire dhire, Khilega dil kahin kaval
   
[Chorus]
     E           Emaj7              Add9 Badd11       
Ke boom boom boom para para, Hain khamosh dono
     E           Emaj7              Add9 Badd11      Ke boom boom boom para para, Hain madhosh dono
E                        A             D                    B  Jo gumsum gumsum hain ye fizayein, Jo kehti sunti hain yeh nigahein
E                   A               Am Gumsum gumsum hai yeh fizayein hain na
 

[Verse 3]
E               Abm     A             F#m      B       
Ye Kaisa samay hain, Kaisa sama hai, Ke shaam hai pighal rahi
E               Abm     A             F#m      B       
yeh sab kuch haseen hai, Yeh sab kuch jawa hain, hain zindagi machal rahi
E               Abm     A             F#m      B        Jagmagati jhilmilati palak palak pe khwab hai
E      Abm         A                    B       
Sun ye hawayein gungunaayein jo geet lajawab hai
 
 
[Chorus]
     E           Emaj7              Add9 Badd11       
Ke boom boom boom para para, Hain khamosh dono
     E           Emaj7              Add9 Badd11      Ke boom boom boom para para, Hain madhosh dono
E                        A             D                    B  Jo gumsum gumsum hain ye fizayein, Jo kehti sunti hain yeh nigahein
E                   A               Am Gumsum gumsum hai yeh fizayein hain na
 
Check out the Video Tutorial Here-     Check out the Original Song Here-                

Newsletter

Guitar Chords

A major




Recent Posts


Load More…

Follow on Instagram

You may also like...

Leave a Reply

Your email address will not be published. Required fields are marked *