Safar (Jab Harry Met Sejal)

Artist – Arijit Singh
Tuning – Standard (EADGBE)
Tricky Chords – None
Strumming – Verse (D DUDU D DU D DU), Chorus (D DUDU U UD DUDU)
Capo – No

 

CLICK HERE to see the full cover

CLICK HERE to see the video tutorial

 

(Intro Guitar Riff)

e|--------0----------0----------0---------------|
B|------1----------1----------3-----------------|
G|----0----------0----------0-------------------|
D|--2----------3----------4---------------------|
A|----------------------------------------------|
E|----------------------------------------------|

(Other Guitar Riffs)

e|----------------------------------| 
B|--10-----10--10-------------------| 
G|----------------------------------| 
D|----------------------------------| 
A|----------------------------------| 
E|----------------------------------|
e|--3---3---3-----------------------| 
B|--1---1---1-----------------------| 
G|--2---2---2-----------------------| 
D|----------------------------------| 
A|----------------------------------| 
E|----------------------------------|
e|---5p3h5p3h5p---------------------| 
B|----------------------------------| 
G|----------------------------------| 
D|----------------------------------| 
A|----------------------------------| 
E|----------------------------------|  
e|--12-----12-----------12----------| 
B|------------------15--------------| 
G|-----14-----14-----------14-------| 
D|----------------------------------| 
A|----------------------------------| 
E|----------------------------------|
e|----------------------------------| 
B|----------------------------------| 
G|--------------------7-------------| 
D|---7h9-9-9-7h9-9-9----------------| 
A|----------------------------------| 
E|----------------------------------|

(Song Tabs)

e|------------------------------------------| 
B|------------------------------------------| 
G|--------------------7--------7------------| 
D|--/7-9-10-9-10-9-10---7-9-10---10-9-7-7---| 
A|------------------------------------------| 
E|------------------------------------------|
e|---------------------------------------| 
B|---------------------------------------| 
G|---------------------------------------| 
D|--10-9-----/7-7-7-7-10--7--------------| 
A|-------7-------------------------------| 
E|---------------------------------------|
e|--------------------------------------------| 
B|-----8--------------------------------------| 
G|-------9-7----------------------------------| 
D|--/7-------10-10/12-10-10-12-10-12-10-10-12-| 
A|--------------------------------------------| 
E|--------------------------------------------|
e|---------------------------------------| 
B|---------------------------------------| 
G|---------------------------------------| 
D|--12-12--7-10/12-----------------------| 
A|---------------------------------------| 
E|---------------------------------------|
e|---------------------------------------------| 
B|---------------------------------------------| 
G|----7/9-7-5-7/9-7-5-7-7-5-5-7-5-7/9-9-9-9----| 
D|--7---------------------------------------7--| 
A|---------------------------------------------| 
E|---------------------------------------------|

 

e|-------------------------------------| 
B|-----8-------------------------------| 
G|-------9-7---------------------------| 
D|--/7--------7--7/10------------------| 
A|-------------------------------------| 
E|-------------------------------------|
e|---------------------------------------| 
B|---------------------------------------| 
G|-----7/9-7-7-7/9-7----------7-7--------| 
D|--/7----------------10-7-10------------| 
A|---------------------------------------| 
E|---------------------------------------|
e|---------------------------------------| 
B|---------------------------------------| 
G|---------------------------------------| 
D|------10-10-10-9-9-5-7-5-7-9-7---------| 
A|--/7-----------------------------------| 
E|---------------------------------------|
e|---------------------------------------| 
B|---------------------------------------| 
G|-----------9-9---9-7-5-7-9-7-----------| 
D|--/7-7-7-7-----------------------------| 
A|---------------------------------------| 
E|---------------------------------------|   X4
e|--------------------------------------| 
B|--------------------------------------| 
G|---7--9-------------------------------| 
D|---------7----------------------------| 
A|--------------------------------------| 
E|--------------------------------------|

(Guitar Solo)

e|--------------------------------------| 
B|-----------------5---5----------------| 
G|------4-5-7--5-7-------7-5------------| 
D|--5-7---------------------------------| 
A|--------------------------------------| 
E|--------------------------------------|
e|--------------------------------------| 
B|--------------------------------------| 
G|--7/9--7/9--7-5-7---5-4---------------| 
D|------------------------7-------------| 
A|--------------------------------------| 
E|--------------------------------------|
e|--------------------------------------| 
B|------------5---5---------------------| 
G|-------5-7--------7-5-----------------| 
D|--5-7---------------------------------| 
A|--------------------------------------| 
E|--------------------------------------|
e|--------------------------------------| 
B|--------------------------------------| 
G|------5-7/9--7---5--4-----------------| 
D|--5-7------------------7--------------| 
A|--------------------------------------| 
E|--------------------------------------|
e|-----------------------------15---------| 
B|------13-13-15b17--13-15b17-----15-15/7-| 
G|--/14-----------------------------------| 
D|----------------------------------------| 
A|----------------------------------------| 
E|----------------------------------------|
e|---19b21r19-17-17-17----15--------------| 
B|----------------------------15-15/7-----| 
G|----------------------------------------| 
D|----------------------------------------| 
A|----------------------------------------| 
E|----------------------------------------|
e|--------------------------------------| 
B|---/12--13--15------------------------| 
G|--------------------------------------| 
D|--------------------------------------| 
A|--------------------------------------| 
E|--------------------------------------|

Am F D                       

 

            Am                        
Ab na mujhko yaad beeta

               F                         D
Main toh lamhon mein jeeta
            Am                        
Chala ja raha hoon

               F                         D
Main kahaan pe ja raha hoon…
            Am                        F D
Kahaan hoon?
                               Am                     F D
Iss yaqeen se main yahan hoon

 

              Am                     
Ki zamana yeh bhala hai
               F                   D
Aur jo raah mein mila hai
              Am                     
Thodi door jo chala hai
               F                   D
Woh bhi aadmi bhala tha
            Am              F D
Pata tha…
                          Am          F D
Zara bas khafa tha

 

             F                       C
Woh bhatka sa raahi mere gaanv ka hi

             G                       D
Woh rasta puraana jisey yaad aana

             F                       C
Zaroori tha lekin jo roya mere bin

             G                       D
Wo ek mera ghar tha

 

             F                       C
Puraana sa darr tha

           G                            D                   F    C
Magar ab na main apne ghar ka raha

    G                              D                   F    C   G  D
Safar ka hi tha main safar ka raha

 

             F                       C
Idhar ka hi hoon na udhar ka raha

             G                       D
Safar ka hi tha main safar ka raha

             F                       C
Idhar ka hi hoon na udhar ka raha

             G                       D
Safar ka hi tha main safar ka raha

             F                       C
Main raha… o o…

             G                       D
Main raha… wo o…

             F                       C  G  D
Main raha…

 

 F C  G  D
Am F  D

 

Verse 2 – Am F D

 

Meel pattharon se meri dosti hai
Chaal meri kya hai raah jaanti hai
Jaane rozana… zamana wohi rozana
Shehar shehar fursaton ko bechta hoon
Khaali haath jaata khaali laut’ta hoon
Aise rozana. rozana khud se begana…
Pre Chorus and Chorus – F C G D

 

Jabse gaanv se main shehar hua
Itna kadva ho gaya ki zehar hua
Main toh rozana
Na chaaha tha yeh ho jaana maine
Ye umrr, waqt, raasta. guzarta raha
    G                              D                   F    C   G  D
Safar ka hi tha main safar ka raha

             F                       C
Idhar ka hi hoon na udhar ka raha

             G                       D
Safar ka hi tha main safar ka raha

             F                       C
Idhar ka hi hoon na udhar ka raha

             G                       D
Safar ka hi tha main safar ka raha

             F                       C
Main raha… o o…

             G                       D
Main raha… wo o…

             F                       C  G  D
Main raha…

Liked it? Take a second to support Adit on Patreon!

Leave a Reply

Your email address will not be published. Required fields are marked *