fbpx

Pyaar Toh Tha Chords and Tabs from Bala

Artist –Jubin Nautiyal,
Tuning – Standard (EADGBE),
Tricky Chords – Bmaj7 (x2434x), Emaj7 (x7989x), C#m7 (x46454), Dm7 (x68676),
Strumming – D D U UD DU or D D U UD DUDU,
Capo – No

 

CHECK OUT the Video Tutorial HERE

 

Intro riff + Verse riff

e|----------------------------------| 
B|----------------------------------| 
G|---4--x--3----x-----3--x---1----x-| 
D|---6--x----4--x-----4--x-----2--x-| 
A|-6----x-------x--------x--------x-| 
E|---------2--------6--------0------|  

e|----------------------------------| 
B|------------------4---------------| 
G|---4--x--3----x-----3--x--1-----x-| 
D|---6--x----4--x--------x----2---x-|
A|-6----x-------x---2----x--------x-| 
E|---------2----------------0-------|

Song Tabs

e|----------------------------------| 
B|----------------------------------| 
G|----------------------------------| 
D|---6-6-8--8/9-9-8-8p6--6----------| 
A|----------------------------------| 
E|----------------------------------|  

 

e|----------------------------------| 
B|----------------------------------| 
G|-------8--8p6--6\4--4h6--6/8------| 
D|---6-6----------------------------| 
A|----------------------------------| 
E|----------------------------------|

 

e|----------------------------------| 
B|----------------------------------| 
G|----------------------------------| 
D|---6-6-8--8/9-9-8-8p6--6\4--4-----| 
A|----------------------------------| 
E|----------------------------------|

 

e|----------------------------------| 
B|----------------------------------| 
G|---8-8-8-6h8-6--------------------| 
D|----------------9-8p6-------------| 
A|----------------------------------| 
E|----------------------------------|

 

e|----------------------------------| 
B|----------------------------------| 
G|-------8--8p6--6\4--4h6--6/8------| 
D|---6-6----------------------------| 
A|----------------------------------| 
E|----------------------------------|

 

e|----------------------------------| 
B|----------------------------------| 
G|----8-8-8-6h8-6-------------------| 
D|----------------9p8p6\4h6---------| 
A|----------------------------------| 
E|----------------------------------|

 

Verse

e|----------------------------------| 
B|----------------------------------| 
G|--6h8--6-----------4h6-4----------| 
D|----------9-8-8----------8-6-6----| 
A|----------------------------------| 
E|----------------------------------|

 

e|----------------------------------| 
B|----------------------------------| 
G|--6h8-6---------------------------| 
D|---------9-8-8--6---4-4-6---------| 
A|----------------------------------| 
E|----------------------------------|

 

e|----------------------------------| 
B|--9\4--4-4-4---5h7p5-4------------| 
G|-----------------------6--4-6/8---| 
D|----------------------------------| 
A|----------------------------------| 
E|----------------------------------|  

 

e|----------------------------------| 
B|--9\4--4-4-4---5h7p5-4------------| 
G|-----------------------6--8p6\4---| 
D|----------------------------------| 
A|----------------------------------| 
E|----------------------------------|

 

e|----------------------------------| 
B|----------------------------------| 
G|--4-4-4-4-6p4---3--1-1/3----------| 
D|----------------------------------| 
A|----------------------------------| 
E|----------------------------------|

 

Solo

e|----------------------------------| 
B|--9---9-12-9--7-------------------| 
G|-----------------6--6h8-----------| 
D|----------------------------------| 
A|----------------------------------| 
E|----------------------------------|

 

e|----------------------------------| 
B|----------------------------------| 
G|--8-9-8---6-8-6---4-6-4--3--4/6---| 
D|----------------------------------| 
A|----------------------------------| 
E|----------------------------------|

 

e|----------------------------------| 
B|-------------------------------12-| 
G|-------------------------11-13----| 
D|-----------9----9--11/13----------| 
A|------9-11---11-------------------| 
E|--/11-----------------------------|

 

e|--9/11--12-11-9-------------------| 
B|----------------9-7-4-2-----------| 
G|-------------------------4p3p1----| 
D|----------------------------------| 
A|----------------------------------| 
E|----------------------------------|


(Intro Riff)

Chithi khabhar teri mitthi
Firdi hawa le aayi
Kendi ve door rehndi aan…

Dil vich rakhiya main teri
Ishqan di gallan saari
Padh padh din raat main thakiya

 

Pyaar toh tha ab
Pyaar hi hai ab
Pyaar hamesha hi rahega
Tu mera tha tab
Tu mera hai ab
Mera hamesha hi rahega

 

G#m                  C#m7
Jaane tu jaane, maane na maane
Emaj7               C#m7
Jaane tu jaane, maane na maane
E                         F#
Ek din tu bhi ye kahega

 

(Intro Riff)
Pyaar toh tha ab
Pyaar hi hai aur
Pyaar hamesha hi rahega
Hmm.. tu mera tha tab
Tu mera hai ab
Mera hamesha hi rahega

 

G#m  C#m7  Emaj7  F#
G#m  C#m7  Emaj7  F#

 

G#m                  D#m7
Pyaar chupaaye chhipta nahi
E                    C#m
Pyaar huaa to rukta nahi
G#m                  D#m7
Pyaar naseebon se milta hai
E                    C#m
Pyaar sabhi se hota nahi

 

G#m   C#m      G#m
Pyaar tera dard banke
G#m  F#          G#m
Mere dil mein rahega
G#m   C#m      G#m
Dard mera pyaar banke
G#m  F#          G#m
Tera hi tera rahega

 

(Intro Riff)
Dard toh tha tab
Dard hi hai ab
Dard hamesha hi rahega
Hmm.. tu mera tha tab
Tu mera hai ab
Mera hamesha hi rahega

 

G#m                  C#m7
Jaane tu jaane, maane na maane
Emaj7               C#m7
Jaane tu jaane, maane na maane
E                         F#
Ek din tu bhi ye kahega

 

(Intro Riff)
Pyaar toh tha ab
Pyaar hi hai ab
hmmm… rahega

Chithi khabhar teri mtitthi
Firdi hawa le aayi
Kendi ve door rehndi aan…

Dil vich rakhiya main teri
Ishqan di gallan saari
Padh padh din raat main thakiya…

 

Liked it? Take a second to support Adit on Patreon!

Leave a Reply

Your email address will not be published. Required fields are marked *