Phir Se Ud Chala (Rockstar)

Artist Mohit Chauhan
Tabbed by Adit Kundra
Tuning Standard (EADGBE)
Tricky Chords – Asus2 (x02200)
Strumming – D UDUD D DUDU
Capo – 2nd fret

 

*** Pls note that the guitars used in the original track are not exactly standard tuned and seem a little detuned. Musicians often use this intentionally to create a ‘live’ grunge kind of effect. I said grunge as a lot of grunge guitarists used to do this.

CLICK HERE for the Video Tutorial

 

e|---------------------------------------------------------|
B|---0----0--0--0-----0--0--0--0----0--0-------------------|
G|---2----2--2--2-----2--2--2--2----2--2-------------------|
D|---0h2--2--2--2-----0--0--2--2----0--0-------------------|
A|---0----0--0--0-----0--0--0--0----0--0-------------------|
E|---------------------------------------------------------|

          D    U  D  U     D  D  D  D    D  U      <— Strumming

[Background Riffs] – The rhythm guitar (standard tuned) plays the following arpeggios during chords

      Bm            F#          E       G#         D#
e|---------------------------------------------------------|
B|--------0-----------0-----------0---------0---------0----|
G|------3-----------3-----------3---------3---------3------|
D|----4-----------4-----------4---------4---------4--------|
A|--2-------------------------------------------6----------|
E|-------------2-----------0----------4--------------------|

 

[Verse with intro riff and arpeggios on Bm]

Asus2 
Oo… Ho Ho Ho Ho Ho Ho
Phir Se Ud Chala
Ud Ke Choda Hai Jahaan Neech Mein Tumhare Ab Hoon Hawale
Door Door Log Baag Meelon Door Yeh Vaadiyan Ghar,
Dhuaan Dhuaan Tan Har Badli Chali Aati Hai Chune
Aur Koi Badli Kabhi Kahi Kar De Tan Geela Yeh Hai Bina Ho
Kisi Manzar Par Main Ruka Nahin
Kabhi Khud Se Bhi Mein Mila Nahin Yeh Gila Toh Hai
Main Khafa Nahin

F#m
Shehar Ek Se, Gaon Ek Se
E                  Asus2
Log Ek Se, Naam Ek Oo…
Asus2
Phir Se Ud Chala Main

Asus2                                                                  B                    Asus2
Mitti Jaise Sapne Yeh Kitaabi Palkon Se Jhaado Phir Aa Jaate Hain
Asus2                                                                                                B               E     Bm
Itne Saare Sapne Kya Kahoon, Kis Tarah Se Maine Tode Hain Chode Hain, Kyun      
E                                                                     Asus2      E   D
Phir Saath Chale, Mujhe Le Ke Ude Yeh Kyun Oo Oo Oo

Asus2
Kabhi Daal Daal, Kabhi Paat Paat
Mere Saath Saath, Phir Dar Dar Yeh
Kabhi Sehera, Kabhi Saavan
Banu Raavan Kyun Mann Marke
Kabhi Daal Daal, Kabhi Paat Paat
Kabhi Din Hai Raat, Kabhi Dinmin Hai Kya Sach Hai, Kya Maya,

B                                               E    Asus2
Hai Daata, Hai Daata Idhar Uudhar, Titar Bitar
Kya Hai Pata, Hawa Liye Jaye Teri Orr

E    
Kheenche Teri Yaaden Teri Yaaden Teri Orr

A           D   E
Tu tu ru tu tu ru

A           F#m  E
Tu tu ru tu tu ru

A                                                  E           F#m   E
Rang Birange Vehmon Mein, Main Udaas Kyun
A                                                 E           F#m   E
Rang Birange Vehmon Mein, Main Udaas Kyun

A           D  A  E
Tu tu ru tu tu ru
A           D E D A E D E D E     <—- Play background arpeggios here
tu ru tu tu ru,
Asus2
Oo… Ho Ho…

Leave a Reply

Your email address will not be published. Required fields are marked *