Mere Sohneya Chords and Tabs from Kabir Singh

Artist – Sachet Tandon, Parampara Thakur,
Tuning – Standard (EADGBE),
Tricky Chords – None,
Strumming – D DUD D DUDU,
Capo – No

 

CHECK OUT the Video Tutorial HERE

 

(Song tabs)

Intro

e|----0------0--------0-------0-----|
B|------0------0---3----3---3---3---|
G|--2------2-------2--------2-------|
D|--2------2-------0--------0-------|
A|--0------0------------------------|
E|----------------------------------|

 

Verse

e|----------------------------------| 
B|----------------------------------| 
G|-------------------------6--------| 
D|--6--6-7-7--7-7-7--7-7-7---9-7----| 
A|----------------------------------| 
E|----------------------------------| 


e|----------------------------------| 
B|----------------------------------| 
G|----------------------------------| 
D|--6--6-7-7--7-7-7--7--------------| 
A|----------------------------------| 
E|----------------------------------| 


e|----------------------------------| 
B|----------------------------------| 
G|-------------------------6--------| 
D|--6--6-7-7--7-7-7--7-7-7---9-7----| 
A|----------------------------------| 
E|----------------------------------| 


e|----------------------------------| 
B|----------------------------------| 
G|----------------------------------| 
D|--6--6-7-7--7-7-7--7--------------| 
A|----------------------------------| 
E|----------------------------------| 


e|----------------------------------| 
B|----------------------------------| 
G|------7--7--7-7--6-6-6---6-4-4----| 
D|--7-9------------------7----------| 
A|----------------------------------| 
E|----------------------------------| 


e|----------------------------------| 
B|----------------------------------| 
G|----------------------------------| 
D|---7-7-9-7-6-7----9-9-9-9-9-9-----| 
A|----------------------------------| 
E|----------------------------------| 


e|----------------------------------| 
B|----------------------------------| 
G|----------------------------------| 
D|----9/11-11----9-7-7--------------| 
A|----------------------------------| 
E|----------------------------------| 
  

Asus2  Dsus2

Asus2             
Bann thann ke mutiyara aaiyan
Dsus2
Aayiaan patola bannke
Asus2     
Kanna de vich peepal pattiyan
Dsus2
Baahi chooda khannke (x2)

 

         D                            E
Mere sohneya sohneya ve
A
Ve maahi mera kitthe naiyo dil lagna
         Bm                           E
Mere sohneya sohneya ve
A
Ve maahi mera kitthe naiyo dil lagna

 

       A  D  Bm 
 Maahi…

 

A   E   D   A

 

              A
Jaavin chhod ke na
      F#m
Tere naal rehna ve
         D
Tu shingaar mera
             E
Tu ae maahi gehna ve

 

              A
Jaavin chhod ke na
    F#m
Tere naal rehna ve
     D
Tu shingaar mera
         E
Tu ae maahi gehna ve haaye

 

  D   
Doori hai vairi
      E                D                     E
Jinna tu mera ohni main teri

 

         Bm                           E
Mere sohneya sohneya ve
A
Ve maahi mera kitthe naiyo dil lagna
         Bm                           E
Mere sohneya sohneya ve
A
Ve maahi mera kitthe naiyo dil lagna

 

    A
Ho haaye tera raasta ve
                     D
Nange pair turna ve
      A
Tu hai naal mere
          E 
Taan main kyu ae darna ve

 

               A
Tera raasta ve
           D
Nange pair turna ve
        A
Tu hai naal mere
          E 
Taan main kyu ae darna ve haaye..

 

D   
Dono ne rona
    E   
Dono ne hassna
  D                       E    
Sab nu ve dassna
       Bm                           E
Mere sohneya sohneya ve

 

A
Ve maahi mera kitthe naiyo dil lagna
         Bm                           E
Mere sohneya sohneya ve
                               A
Ve maahi mera kitthe naiyo dil lagna
                              A                      Bm
Ve maahi mera kitthe naiyo dil lagna
       A                     E                        A 
Ve maahi mera kitthe naiyo dil lagna
 

 

     A
Bann thann ke mutiyara aaiyan
      F#m
Aayiaan patola bannke
   D
Kanna de vich peepal pattiyan
     A
Baahi chooda khannke

 

     A
Bann thann ke mutiyara aaiyan
      F#m
Aayiaan patola bannke
   D
Kanna de vich peepal pattiyan
     A
Baahi chooda khannke

Liked it? Take a second to support Adit on Patreon!

2 thoughts on “Mere Sohneya Chords and Tabs from Kabir Singh

  • July 16, 2019 at 9:50 pm
    Permalink

    Thank you so much sir

    Reply
    • July 16, 2019 at 10:12 pm
      Permalink

      Glad you liked it Subham 🙂

      Reply

Leave a Reply

Your email address will not be published. Required fields are marked *