Kalank Title (Kalank)

Artist – Arijit Singh
Tuning – Standard (EADGBE)
Tricky Chords – Dmaj7 (xx0222), Fmaj7 (xx3210), Bm7 (x24232)
Strumming – D DU UDU
Capo – 1st Fret

 

(Intro Guitar Riff)

e|----------------------------------------------|
B|----------------------------------------------|
G|--4--6--4--2--------2-----4--5--4---2---------|
D|--------------2--4----------------------------|
A|----------------------------------------------|
E|----------------------------------------------|

(Song tabs)

e|----------------------------------------------|
B|----------------------------------------------|
G|--6-7--9-7-6--7/9-----2-4-5-4-2--4/5----------|
D|--------------------4-----------------3-------|
A|----------------------------------------------|
E|----------------------------------------------|
e|----------------------------------------------|
B|----------------------------------------------|
G|------2-----5/6---4-2-4/5--4--2--2-2----------|
D|--3-5---5-3-----------------------------------|
A|----------------------------------------------|
E|----------------------------------------------|
e|----------------------------------------------|
B|----------------------------------------------|
G|--6-7--9-7-9--9/11----/9-6------5-6-----------|
D|---------------------------9-7----------------|
A|----------------------------------------------|
E|----------------------------------------------|    X2
e|----------------------------------------------|
B|-----------------------------------3h5p3------|
G|--6-7--9-7-6--7/9-----2-4-5-4-2-5--------5-2--| 
D|------------------4---------------------------|
A|----------------------------------------------|
E|----------------------------------------------|
e|----------------------------------------------|
B|----------------------------------------------|
G|------2-----5/6---4-2-4/5--4--2--2-2----------| 
D|--3-5---5-3-----------------------------------|
A|----------------------------------------------|
E|----------------------------------------------|
e|----------------------------------------------| 
B|----------------------------------------------|
G|--2-2h4-4-----2-2h4-4-----2-2h4-4-------------| 
D|----------------------------------------------| 
A|----------------------------------------------| 
E|----------------------------------------------|
e|----------------------------------------------| 
B|----------------------------------------------|
G|--2-2-4/6----2-2-4/6----2-2-4/6-----2--2------| 
D|----------------------------------------------| 
A|----------------------------------------------| 
E|----------------------------------------------|
A  F#m  F
                                 Dmaj7
Hawaaon mein bahenge
                                 Fmaj7
Ghataon mein rahenge
                      F#m
Tu barkha meri
            F                  D

Main tera baadal piya

                      Dmaj7
Jo tere na huve toh
                      Fmaj7
Kisi ka na rahenge
                      F#m
Deewani tu meri
            F                  D
Main tera paagal piya
                           F#m  D
Hazaaron mein kisi ko
           F  A
Taqdeer aisi
                    F#m  D
Mili hai Ik Ranjha
                   F  A
Aur Heer jaisi
                      Dmaj7
Na jaane ye zamaana
                      Fmaj7
Kyun chaahe re mitaana
             F#m
Kalank nahi
            F                  D
Ishq hai kaajal piya
             F#m
Kalank nahi
            F                  D
Ishq hai kaajal piya
            Bm7                              E 
Main tera, main tera, main tera, main tera
          F#m                             D 
Main tera, main tera, main tera
          Bm7                              E 
Musaafir main bhatka tu mera basera
          F#m                             D 

Main tera o… main tera

          Bm7                              E 

Tu jugnu chamakta

          F#m                             D 
Main jungle ghanera   Main tera…
Liked it? Take a second to support Adit on Patreon!

Leave a Reply

Your email address will not be published. Required fields are marked *