fbpx

Kaise Hua Chords And Tabs From Kabir Singh

Artist – Vishal Mishra,
Tuning – Standard (EADGBE),
Tricky Chords – None,
Strumming – DDDDDDDD, D DUDU,
Capo – No

 

CHECK OUT the Video Tutorial HERE

 

(Song tabs)

 

Verse

e|----------------------------------|
B|----------------------------------|
G|-7-4-7-4-7---7-4-7-----7-4-7-4-7--|
D|----------------------------------|
A|----------------------------------|
E|----------------------------------|


e|----------------------------------| 
B|----------------------------------| 
G|--7-4-7----6-4--------------------| 
D|---------------7------------------| 
A|----------------------------------| 
E|----------------------------------| 



e|----------------------------------| 
B|----------------------------------| 
G|-7-4-7-4-7---7-4-7-----7-4-7-4-7--| 
D|----------------------------------| 
A|----------------------------------| 
E|----------------------------------| 


e|----------------------------------| 
B|----------------------------------| 
G|--7-4-7----6-4--------------------| 
D|---------------7------------------| 
A|----------------------------------| 
E|----------------------------------| 

e|----------------------------------| 
B|----------------------------------| 
G|--/4-6-7-4---/7-6-----------------| 
D|------------------7---------------| 
A|----------------------------------| 
E|----------------------------------|   X2


e|----------------------------------| 
B|----------------------------------| 
G|--/4-6-7-4----4-4-6-7-4-----------| 
D|----------------------------------| 
A|----------------------------------| 
E|----------------------------------| 


e|----------------------------------| 
B|----------5/7-5----10-------------| 
G|--/4-6-7--------------------------| 
D|----------------------------------| 
A|----------------------------------| 
E|----------------------------------| 


e|----------------------------------| 
B|--/10-10-7------/10-10-7----------| 
G|-----------9-------------9--------| 
D|----------------------------------| 
A|----------------------------------| 
E|----------------------------------| 


e|----------------------------------| 
B|--------------9-10-9--------------| 
G|--7-7-9-7---9--------9---7-7-6----| 
D|-------------------------------7--| 
A|----------------------------------| 
E|----------------------------------|


e|----------------------------------| 
B|--/10-10-7------10-10/12--7-------| 
G|-----------9----------------9-----| 
D|----------------------------------| 
A|----------------------------------| 
E|----------------------------------| 

e|----------------------------------| 
B|--------------9-10-9--------------| 
G|--7-7-9-7---9--------9---7-7-6----| 
D|-------------------------------7--| 
A|----------------------------------| 
E|----------------------------------| 

 

(Solo)
e|----------------------------------| 
B|-------------10-7-----------------| 
G|---/9---7-9--------9--9-----------| 
D|----------------------------------| 
A|----------------------------------| 
E|----------------------------------| 


e|----------------------------------| 
B|----------------------------------| 
G|---/7-9-11--11b-11b-11-7--9-------| 
D|----------------------------------| 
A|----------------------------------| 
E|----------------------------------| 


e|----------------------------------| 
B|------------------10----10/12--10-| 
G|-------------9-11----11-----------| 
D|-------9-12-----------------------| 
A|--9-12----------------------------| 
E|----------------------------------| 


e|-------------10----10-------10----| 
B|-------10-12----12-------12-------| 
G|--9-11----------------------------| 
D|----------------------------------| 
A|----------------------------------| 
E|----------------------------------| 


e|--12-12b-12b12--10----10----------| 
B|-------------------12-------------| 
G|----------------------------------| 
D|----------------------------------| 
A|----------------------------------| 
E|----------------------------------| 

 

B5   F#5
B5   F#5

 

B5                                                         F#5
Hansta rehta hu tujhse mil kar kyu aajkal
B5                                                       F#5
Badle badle hain mere tevar kyun aajkal
                    G       A      D
Aankhein meri har jagah
                     G       A       D
Dhoondhe tujhe bewajah
                          G                 Em           A
Ye main hoon ya koi aur hai meri tarah
 

 D               F#m
Kaise hua, kaise hua
    G                      A
Tu itna zaroori kaise hua
   D             F#m
Kaise hua, kaise hua
    G                      A
Tu itna zaroori kaise hua

 

D  F#m  G  A
D  F#m  G  A

 

    D
Main baarish ki boli samajhta nahi tha
F#m 
Hawaaon se main yun ulajhta nahi tha
       G 
Hai seene mein dil bhi
                          A                   D       A
Kahaan thi mujhe ye khabar

 

Bm
Kahin pe hon raatein Kahin pe savere
F#m
Awaargi hi rahi saath mere

Thehar ja, thehar ja
                    A       D      F#m  
Ye kehti hai teri nazar
         Bm         Em          A
Kya haal ho gaya hai ye mera

                  G       A      D
Aankhein meri har jagah
                     G       A       D
Dhoondhe tujhe bewajah
                          G              Em               A
Ye main hoon ya koi aur hai meri tarah
 

 D             F#m
Kaise hua, kaise hua
    G                      A
Tu itna zaroori kaise hua
   D             F#m
Kaise hua, kaise hua
    G                      A
Tu itna zaroori kaise hua
   D             F#m
Kaise hua, kaise hua
    G                      A
Tu itna zaroori kaise hua

Liked it? Take a second to support Adit on Patreon!

Leave a Reply

Your email address will not be published. Required fields are marked *