Jo Bhi Main (Rockstar)

Artist Mohit Chauhan
Tabbed by Adit Kundra
Tuning Standard (EADGBE)
Tricky Chords – Em7 (022030), Em6 (022020), Am7 (x02213), Dsus2 (xx0230), Dsus4 (xx0233)
Strumming – D D U U UDUDU
Capo – No

CLICK HERE for the Video Tutorial

e|---------0------------------------------------------------------------------------|
B|-----------------3----------------------------------------------------------------|
G|-------------0--------------2-----------------------------------------------------|
D|----------------------4/5--------4p0----------------------------------------------|
A|----------------------------------------------------------------------------------|
E|----0-----------------------------------------------------------------------------|
e|---------0------------------------------------------------------------------------|
B|------------0------3--------------------------------------------------------------|
G|--------------0--------------2---4p0----------------------------------------------|
D|----------------------4/5---------------------------------------------------------|
A|----------------------------------------------------------------------------------|
E|----0-----------------------------------------------------------------------------|
e|---------0------------------------------------------------------------------------|
B|----------- 0----3----------------------------------------------------------------|
G|----------- --0--------------2----------------------------------------------------|
D|----------------------4/5--------0h2----------------------------------------------|
A|----------------------------------------------------------------------------------|
E|----0-----------------------------------------------------------------------------|

Em
Ya Ya Ya Ya Ya Ya Ya Ya Ya Oo Oo

Em      Em7-Em6   Em7-Em6      Em7-Em6        Em           Em
Jo Bhi Main, Kehna Chahoon, Barbaad Karein, Alfaaz Mere, Alfaaz Mere
Em
Oo Yeah Yeah Oo Yeah Yeah Oo

G                                             Dsus2           
Kabhi Mujhe Lagey Ke Jaise, Saara Hi Yeh Jahaan Hai Jaage
    Am7                                                 D         Dsus4  D Dsus2  D  
Jo Hai Bhi Aur Nahin Bhi Hai, Yeh Fizaa Ghata Hawa Bahaarein
G                     Dsus2     Am7                    Dsus2
Tujhe Kare Ishaare Ye Kaise Kahun, Kahani Main Inki

Em      Em7-Em6   Em7-Em6      Em7-Em6        Em           Em
Jo Bhi Main, Kehna Chahoon, Barbaad Karein, Alfaaz Mere, Alfaaz Mere
Em
Oo Yeah Yeah Oo Yeah Yeah Oo

G  Dsus2  Am7  Dsus2             

    G                                           Dsus2           
Maine Yehi Socha Hai Aksar, Tu Bhi Main Bhi Sabhi Hain Sheeshe
        Am7                                                   D         Dsus4  D Dsus2  D  
Khud Hi Ko Hum Sabhi Mein Dekhein, Nahi Hoon Main Hoon Main To Phir Bhi
G                         Dsus2             Am7         Dsus2
Sahi Galat Tumhara Main, Mujhe Paana Paana Hai Khud Ko

Em      Em7-Em6   Em7-Em6      Em7-Em6        Em           Em
Jo Bhi Main, Kehna Chahoon, Barbaad Karein, Alfaaz Mere, Alfaaz Mere
Em
Oo Yeah Yeah Oo Yeah Yeah Oo

Liked it? Take a second to support Adit on Patreon!