fbpx

Kyun Rabba (Badla)

Artist – Armaan Malik
Tuning – Standard (EADGBE)
Tricky Chords – None
Strumming – D DU D DU DUDU
Capo – No

 

CLICK HERE to see the video tutorial

 

(Intro Guitar Riff)

e|---------------------------------------------|
B|------8--------------------7-----------------|
G|---------------7---7h9--9--------------------|
D|----------9----------------------------------|
A|---------------------------------------------|
E|-0-------------------------------------------|

(Verse + Chorus Tab)

e|---------------------------------------------|
B|---------------------------------------------|
G|---------------------------------------------|
D|-/9-9-9-7-9-7\5-4-4----2/9-9-9-7-9-7\5-4-4---|
A|---------------------------------------------|
E|---------------------------------------------|
e|---------------------------------------------|
B|----7-7/9-9-7-5-4----------7-7/9-9-7-5-4-----|
G|-/9---------------------/9-------------------|
D|---------------------------------------------|
A|---------------------------------------------|
E|---------------------------------------------|
e|---------------------------------------------|
B|---------------------------------------------|
G|-2-4-4/5-5-4-2-0-0-2-0-----------------------|
D|-----------------------4--4------------------|
A|---------------------------------------------|
E|---------------------------------------------|
e|----------------------------------------------------|
B|----------------------------------------------------|
G|----------------------------------------------------|
D|-/5-4-5-4-2-0-2-2-2-4-4/5-5--/5-4-5-4-2-0-2-2-2-2-0-|
A|----------------------------------------------------|
E|----------------------------------------------------|
e|---------------------------------------------|
B|---------------------------------------------|
G|---------------------------------------------|
D|-/5-4-5-4-2-0-2-2-2-4-4/5-5--/7-5-4-2--------|
A|---------------------------------------------|
E|---------------------------------------------|

(Solo)

e|-----10-10-10-12----------15-15-15-14-14-----|
B|-/12------------------/12--------------------|
G|---------------------------------------------|
D|---------------------------------------------|
A|---------------------------------------------|
E|---------------------------------------------|

 

Em C Bm Am
Em C Bm Am

 

Em                            Bm
Dil hanste hanste ro pada
Am                                Em
Dard aasuon mein hai bada
Em                            Bm
Dil hanste hanste ro pada
Am                               Em
Dard aasuon mein hai bada

          Em
Tooti sabse yaari
                   Bm
Main toh zindagi se haari
            Am
Gayi saanson ko dukha ke
                Bm
Kaha pe ye hawa

                            Em
Kyun rabba is kadar todeya ve
            C                        D
Ke ek tukda na chhodeya ve
                     Em
Dhadakane ki liye dhadkanon mein
                       C     D
Kuchh na bacha

        Em
Kyun rabba is kadar todeya ve
            C                        D
Ke ek tukda na chhodeya ve
                     Em
Dhadakane ki liye dhadkanon mein
                       C     D
Kuchh na bacha

Liked it? Take a second to support Adit on Patreon!

Leave a Reply

Your email address will not be published. Required fields are marked *