fbpx

Ghungroo Chords and Tabs from War

Artist –Arijit Singh,
Tuning – Standard (EADGBE),
Tricky Chords – Bm7 (x24232) & (797777), F#m7 (242222) & (X 9 11 9 10 9)
Strumming – D D U UD DU or D D U UD DUDU
Capo – No

 

CHECK OUT the Video Tutorial HERE

 

(Song tabs)

Intro riff

e|----------------------------------| 
B|----------------------------------| 
G|----------------------------------| 
D|----------------------------------| 
A|----------------------------------| 
E|----7-----2-----5-----0-----------|  (play each note 16 times)

e|----------------------------------| 
B|----------------------------------| 
G|----------------------------------| 
D|---7-9-7-----7-9-9--7-9-9---------| 
A|---------9------------------------| 
E|----------------------------------|

 

e|----------------------------------| 
B|----------------------------------| 
G|----------------------------------| 
D|--7-9-7-9---/11-9-7---------------| 
A|----------------------/7-9-9------| 
E|----------------------------------|

 

e|----------------------------------| 
B|----------------------------------| 
G|----------------------------------| 
D|----------------------------------| 
A|--/7-9-9-----/11-9-7-9-7----------| 
E|----------------------------------|

 

Chorus Riff

e|----------------------------------| 
B|----------------------------------| 
G|----------------------------------| 
D|-9-11-11-11-11-11-11-11-11-9-9-9--| 
A|----------------------------------| 
E|----------------------------------|  (X2)

 

e|----------------------------------| 
B|----------------------------------| 
G|----------------------------------| 
D|--9-11-11-11-11-11-11-11-11-9-----| 
A|----------------------------------| 
E|----------------------------------|

 

e|----------------------------------| 
B|----------------------------------| 
G|----------------------------------| 
D|----------------------------------| 
A|--12-12-11-11-9-------------------| 
E|----------------------------------|

 

Guitar Solo

e|----------------------------------| 
B|----------------------------------| 
G|----------------------------------| 
D|--9-7-9-7-9-7--9/11--7------------| 
A|------------------------9---------| 
E|----------------------------------|

 

e|----------------------------------| 
B|----------------------------------| 
G|----------------------------------| 
D|--9-7-9-7-9-7--9/11--7------------| 
A|------------------------9---------| 
E|----------------------------------|

 

e|----------------------------------| 
B|----------------------------------| 
G|----------------------------------| 
D|----------------------------7-----| 
A|--9p7-7----9p7-7--------7-9-------| 
E|--------9--------9---/9-----------|

 

e|----------------------------------| 
B|----------------------------------| 
G|--------9-------------------------| 
D|--9/11-----11\9---7---------------| 
A|----------------------------------| 
E|----------------------------------|

 

Song Tabs

e|----------------------------------| 
B|----------------------------------| 
G|----------------------------------| 
D|--/11-12-11-11-------11-12-11-11--| 
A|-----------------/12--------------| 
E|----------------------------------|

 

e|----------------------------------| 
B|----------------------------------| 
G|----------------------------------| 
D|--/11-12-11-11-9----9-11-9-9------| 
A|-----------------12---------------| 
E|----------------------------------|

 

 

e|----------------------------------| 
B|----------------------------------| 
G|-----9-9h11-11---9-7-9-9--7-6-7-7-| 
D|-/11------------------------------| 
A|----------------------------------| 
E|----------------------------------|

 

e|----------------------------------| 
B|----------------------------------| 
G|-----9-9h11-11---9-7-9-9--7-6-4-4-| 
D|-/11------------------------------| 
A|----------------------------------| 
E|----------------------------------|

 

e|----------------------------------| 
B|----------------------------------| 
G|----------------------------------| 
D|-7-9-11-12-11-11------11-12-11-11-| 
A|-------------------/12------------| 
E|----------------------------------|

 

e|----------------------------------| 
B|----------------------------------| 
G|-------------7--------------------| 
D|----7-7-9-11-----12-11-9----------| 
A|----------------------------------| 
E|----------------------------------|

 

e|----------------------------------| 
B|----------------------------------| 
G|----------------------------------| 
D|-------7---7h9-9-9-9-9-7-9--------| 
A|--/9-9---9------------------------| 
E|----------------------------------|

 

e|----------------------------------| 
B|----------------------------------| 
G|----------------------------------| 
D|--9-9-9p7---7-7-7--9p7-6-6--------| 
A|----------------------------------| 
E|----------------------------------|

e|----------------------------------| 
B|----------------------------------| 
G|----------------------------------| 
D|--6-6-7-9---6\4-4-4---------------| 
A|----------------------------------| 
E|----------------------------------|


Bm7   F#m7   A  E
Bm7   F#m7   A  E

 

                    Bm7
Met the sun in the sand
                     F#m7
And the sea in the night
                        A  
And we’re feeling alright
                        E
Yeah, we’re feeling alright

 

Bm7   D  F#m7   E
Bm7   D  F#m7   E

 

Bm7               F#m7
Kyun lamhe kharab karein
A                  E
Aa ghalti behisab karein
Bm7               F#m7
Do pal ki jo neend udi
A                          E
Aa poore saare khaab karein

      Bm7                          D
Kya karne hai umron ke waade
       F#m7                         E
Ye jo rehte hain rehne de aadhe

Bm7               F#m7
Do baar nahi ik baar sahi
A                          E
Ik raat ki kar le tu yaari

 

              Bm7                          D
Subah tak maan ke meri baat
            F#m7                E
Tu aise zor se naachi aaj
                  Bm7              D
Ki ghungroo toot gaye
                F#m7                E  
Ki ghungroo toot gaye

           Bm7                          D
Chhod ke saare sharm aur laaj
              F#m7                E
Main aise zor se naachi aaj
                  Bm7              D
Ki ghungroo toot gaye
                F#m7                E  
Ki ghungroo toot gaye

 

Bm7  D  A  F#m7  E
Bm7  D  A  F#m7  E

 

    Bm7
Dil lena dil dena zaroori nahi hai
        A
Inn baaton ke siva bhi baatein kai hai
      Bm7
Ek lamhein se zyada ki khwahish nahi hai
      A
Phir chaahe dobara na milna kahi

 

           Bm7                          D
Mere sapne nahi seedhe saadhe
            F#m7                    E
Hai ghalat fehmiyan to mita de
   Bm7               F#m7
Do baar nahi ik baar sahi
       A                          E
Ik raat ki kar le tu yaari

 

              Bm7                          D
Subah tak maan ke meri baat
            F#m7                E
Tu aise zor se naachi aaj
                  Bm7              D
Ki ghungroo toot gaye
                F#m7                E  
Ki ghungroo toot gaye

           Bm7                          D
Chhod ke saare sharm aur laaj
              F#m7                E
Main aise zor se naachi aaj
                  Bm7              D
Ki ghungroo toot gaye
                F#m7                E  
Ki ghungroo toot gaye

                  Bm7              D
Ki ghungroo toot gaye
                F#m7                E  
Ki ghungroo toot gaye

Liked it? Take a second to support Adit on Patreon!

Leave a Reply

Your email address will not be published. Required fields are marked *