Dekhte Dekhte (Batti Gul Meter Chalu)

Artist Atif Aslam Tabbed by Adit Kundra Tuning Standard (EADGBE)  


  Tricky Chords – D7 (xx0212) Strumming – D UDUD D DUDU
Capo – No  
 

[Intro riff] 
e|-----------------------------------------|
B|------1---0--1--3--1h3p1p0---------------|
G|-----------------------------2-----------|
D|----2------------------------------------|
A|-0---------------------------------------|
E|-----------------------------------------|

 

e|-----------------------------------------|
B|------1---0--1--3--1h3p1p0---------------|
G|-----------------------------2-----------|
D|----2------------------------------------|
A|-----------------------------------------|
E|-3---------------------------------------|
 
e|--------------------------------------------|
B|--------3-5-6-5-3-1-----1h3p1---0------0----|
G|---------------------------------------4----|
D|-----3--------------------------------------|
A|---3----------------------------------------|
E|-1----------------------1-----------3-------|
 

  [Intro chords] 
Am C/G F F G
 
  Am
Rajj ke rulaaya F Rajj ke hansaya Em                F       G Maine dil kho ke ishq kamaya  
Am
Maanga jo usne  F ek sitara Em                F       G
Humne zameen pe chaand bulaya        Am          D7 Jo aankhon se.. haaye
     Am                      D7 Wo jo aankhon se ik pal na ojhal huve
     Am                      D7 Wo jo aankhon se ik pal na ojhal huve
    C            G        Am
Laapata ho gaye dekhte dekhte        Am Sochta hoon…
     Am                     G Sochta hoon ke woh kitne masoom thay
     Am                     G
Sochta hoon ke woh kitne masoom thay
        F       G       Am
Kya se kya ho gaye dekhte dekhte
     Am                     D7
Sochta hoon ke woh kitne masoom the
        C           Em       Am
Kya se kya ho gaye dekhte dekhte
   
     Am                     G
Aate jaate thhe jo saans ban ke kabhi
     Am                     G
Aate jaate thhe jo saans ban ke kabhi
     F       G        Am
Woh hawa ho gaye dekhte dekhte
     F       G        
Woh hawa ho gaye.. haaye…
     C   G
Oh ho ho…
     C   G
Oh ho ho…
   
     F  
Woh hawa ho gaye dekhte dekhte
     Am          F
Alvida ho gaye dekhte dekhte
     Am          F Lapata ho gaye dekhte dekhte
     Am          F Kya se kya ho gaye dekhte dekhte
   
     Am                      D7
Jeene marne ki hum the wajah aur hum hi      Am                      D7
Jeene marne ki hum the wajah aur hum hi     C            Em        Am
Bewajah ho gaye dekhte dekhte…
     Am                    G
Sochta hoon ke woh kitne masoom the
        F      G      Am
Kya se kya ho gaye dekhte dekhte
        F      G      Am
Kya se kya ho gaye Ho
 
  Check out the Video Tutorial Here-
    Check out the Original Song Here-

Newsletter

Guitar Chords

A major




Recent Posts


Load More…

Follow on Instagram

You may also like...

6 Responses

  1. Bhavna sharma says:

    As always awesome…..

  2. Pankaj says:

    Great Fan of your work Sir. I am sort of in between beginner and intermediate guitar player and i am confused in playing string that of intro. I can play hammer and pull off. Problem is i am unable to understand the sequence. Any advice would be really helpful. Thank You.

  3. Pankaj Patel says:

    Great Fan of your work Sir. I am sort of in between beginner and intermediate guitar player and i am confused in playing string that of intro. I can play hammer and pull off. Problem is i am unable to understand the sequence. Any advice would be really helpful. Thank You.

  4. Anup says:

    Bro. You need a Better responsive templete for you website becaue your chords are misaligned in mobile. Your Chords are very good.

Leave a Reply

Your email address will not be published. Required fields are marked *