Binte Dil (Padmaavat)

Artist Arijit Singh Tabbed by Adit Kundra Tuning Standard (EADGBE)  


  Tricky Chords – Fmaj7 (xx3210) Strumming – D D UDUD D DU   [Intro]

e|--------------------------------------------------------------------------------------------|
B|--------------------------------------------------------------------------------------------|
G|---2--2-2-2------2-----2---2-2-2----2--1--2-------------------------------------------------|
D|---------------2------------------------------3---3-3-3---0--2------------------------------|
A|-0-----------0------0------------0---------0-------------------3-5-2-3--2---3/5---3-2-0-----|
E|----------------------------------------------------------------------------------------0---|

e|--------------------------------------------------------------------------------------------|
B|--------------------------------------------------------------------------------------------|
G|---2--2-2-2------2-----2---2-2-2----2--1--2-------------------------------------------------|
D|---------------2------------------------------3---3-3-3---0--2------------------------------|
A|-0-----------0------0------------0---------0-------------------3-5-2-3/5--------------------|
E|--------------------------------------------------------------------------------------------|

  [Intro] Am  Fmaj7  C   E   
Am  Fmaj7  E   
    [Chorus]
Am              Dm        G            C Binte dil Misriya mein, Binte dil Misriya mein 
Am              Dm         G            C
Binte dil Misriya mein, Binte dil Misriya mein
F                            Am
Pesh hai kul shabab khidmat aali janaab
F              G              C
Pesh hai kul shabab khidmat aali janaab Am        F        G     C    Aatish qadah adaaon se
Am        F                   G            G Aatish qadah adaaon se, Jal uthega aapke, Dida-e-tar ka hijaab
Am                Dm G            C
Binte dil Misriya mein, Binte dil Misriya mein 
 
  [Instrumental] Dm  G  Em  F  G   
Dm  G  Em  F  G   
    [Verse 2]
Dm                              Em Mehkash labon pe aane lagi hai, Pyasi qurbatein F             G               C Hairatzada thikaane lagi hai, Saari furqatein Am                              Dm Mehkash labon pe aane lagi hai, Pyasi qurbatein F            G                 C Hairatzada thikaane lagi hai, Saari furqatein F            Em         Dm  C  A#                     E Kaarizon pe mere likh zara,   Rifwatein chahaton ka sila
   
[Chorus]
Am              Dm        G            C Binte dil Misriya mein, Binte dil Misriya mein 
Am              Dm        G            C
Binte dil Misriya mein, Binte dil Misriya mein
F                            Am
Pesh hai kul shabab khidmat aali janaab
F             G               C
Pesh hai kul shabab khidmat aali janaab Am    F    G     C    Aatish qadah adaaon se
Am        F                   G            G Aatish qadah adaaon se, Jal uthega aapke, Dida-e-tar ka hijaab
Am              Dm        G            C
Binte dil Misriya mein, Binte dil Misriya mein
 
 
  Check out the Video Tutorial Here-     Check out the Original Song Here-                

Newsletter

Guitar Chords

A major




Recent Posts


Load More…

Follow on Instagram

Leave a Reply

Your email address will not be published. Required fields are marked *