Bekhayali Chords and Tabs from Kabir Singh

Artist – Sachet Tandon
Tuning – Standard (EADGBE)
Tricky Chords – Am/G (322100), Am/F (122100)
Strumming – D D D DUDUDU
Capo – No

 

CHECK OUT the Video Tutorial HERE

 

 

(Song tabs)

Guitar Solo (Intro)

e|-------15---------------------------|
B|-15b17----17r15-13-----15-13--------|
G|--------------------14-------14-14--|
D|------------------------------------|
A|------------------------------------|
E|------------------------------------|


e|--------------5-7-5-----------------| 
B|------------5-------8-5---7-5-------| 
G|------5-7b9-------------------7-----| 
D|-/5-7-------------------------------| 
A|------------------------------------| 
E|------------------------------------|  


e|------------------------------------| 
B|-7-5------7-5-----------------------| 
G|-----7-5--7-5-----------------------| 
D|----------7-5-----------------------| 
A|----------------7p5p0--3p0h3p0h3p0--| 
E|------------------------------------|  

 

Guitar Intro

e|------------------------------------|
B|-----1-0-----1-0-----1-0------0-1-3-|
G|-----2-------2-------2------0-0-----|
D|---2-------2-------2------0---------|
A|-0----------------------------------|
E|---------3-------1-------3----------|

 

Verse

e|-------------------------------------|
B|-------------------------------------|
G|----5-4-7-----5-4-7-----5-4--2-0-2/4-|
D|-/7--------/7--------/7--------------|
A|-------------------------------------|
E|-------------------------------------|   X2 
 
e|-------------------------------------|
B|----------------5-3---------5-3------|
G|-/5-4-2-0-2---2------2---2-----------|
D|-------------------------------------|
A|-------------------------------------|
E|-------------------------------------|

e|-------------------------------------|
B|---------5--3------------------------|
G|---2--2---------5-4---2/4------------|
D|-------------------------------------|
A|-------------------------------------|
E|-------------------------------------|
e|-------------------------------------| 
B|---------------5-3---------5-3-------| 
G|-/5-4--0-2---2------2---2------------| 
D|-------------------------------------| 
A|-------------------------------------| 
E|-------------------------------------|

e|-------------------------------------|
B|---------5--3------------------------|
G|---2--2---------5-4---2--------------|
D|-------------------------------------|
A|-------------------------------------|
E|-------------------------------------|

(Chorus)
e|-------------------------------------|
B|-------------------------------------|
G|--/5--4-5-4-5-4-5---/4-5-4-5-4-5/7---|
D|-------------------------------------|
A|-------------------------------------|
E|-------------------------------------|

e|-------------------------------------|
B|-------------------------------------|
G|-5-7-5-7-5-7/9--7--5--7-5-4----------|
D|-------------------------------------|
A|-------------------------------------|
E|-------------------------------------|

e|-------------------------------------|
B|-------------------------------------|
G|--/5--4-5-4-5-4-5---/4-5-4-5-4-5/7---|
D|-------------------------------------|
A|-------------------------------------|
E|-------------------------------------|

e|-------------------------------------|
B|-------------------------------------|
G|-5-7-5-7-5-7/9-----------------------|
D|-------------------------------------|
A|-------------------------------------|
E|-------------------------------------|

Am           Am/G       Am/F             G              
Bekhayali mein bhi tera hi khayaal aaye
Am                    Am/G          Am/F             G   
Kyun bichhadna hai zaroori ye sawaal aaye
                  Dm      F             Am            Em   
Teri nazdeekiyon ki khushi behisaab thi
                  Dm      F             Am            Em   
Hisse mein faasle bhi tere bemisaal aaye

 

Am                               Am
Main jo tumhse door hoon
                                F
Kyun door main rahoon
                        G   D
Tera guroor hoon
Am                    Am
Aa tu faasla mita
                             F
Tu khwaab sa mila
                                    D
Kyun khwaab tod doon oo…

 

Am   F   G   Em
Am   F   E   E

 

Am                   F                G               Em
Bekhayali mein bhi tera hi khayaal aaye
Am                   F                G               Em
Kyun judai de gya tu ye sawal aaye
                 Am            F                G               Em
Thoda sa main khafa ho gaya apne aap se
               Am            F                G               Em
Thoda sa tujhpe bhi bewajah hi malaal aaye

 

F   F   Am   F

 

Am                   Am/G        
Hai ye tadpan, hai ye uljhan
  F         G   
Kaise jee loon bina tere
Am                   Am/G 
Meri ab sab se hai annban
  F         G 
Bante kyun ye Khuda mere hmm…

 

Am   Am/G      F         G 
Am   Am/G      F         G 

 

Am                               Am
Ye jo log-baag hain
                                F
Jungle ki aag hain
                                G   D
Kyun aag mein jalun…
Am                               Am
Ye nakaam pyaar mein
                                F
Khush hain ye haar mein
                                Am
Inn jaisa kyun banun oo…

 

 F    G    F   Em
 F    G    F   F
Am  Dm  Am  Dm 

 

Am             C
Raatein dengi bata
G                              D
Neendo me teri hi baat hain
Am             C
Bhoolun kaise tujhe
G                              D
Tu toh khayalo me saath hai

 

Am                   F                Am              G
Bekhayali mein bhi tera hi khayaal aaye
Am                   F                G               Em
Kyun bichhadna hai zaroori ye sawaal aaye

 

F    G     F    Em
F    G     F    F

 

Am                   Am/G   
Nazron ke aage har ek manzar
  F                     G   
Ret ki tarah bikhar raha hai
Am                   Am/G   
Dard tumhara badan me mere
  F                     G   
Zeher ki tarah utar raha hai

 

Am                   Am/G   
Nazron ke aage har ek manzar
  F                     G   
Ret ki tarah bikhar raha hai
Am                   Am/G   
Dard tumhara badan me mere
  F                     G   
Zeher ki tarah utar raha hai

 

Am             Am/G        F             G   
Aa zamane aazmaale rooth ta nahi
Am             Am/G        F             G     
Faaslon se hausla ye toot’ta nahi
       Dm      F             Am            Em   
Naa hai woh bewafa aur naa main hoon bewafaa
     Dm      F             Am            Em   
Woh meri aadaton ki tarah chhoot’ta nahi

Liked it? Take a second to support Adit on Patreon!

2 thoughts on “Bekhayali Chords and Tabs from Kabir Singh

  • August 21, 2019 at 3:59 pm
    Permalink

    what is the meanning of 15b17?? nd r ??

    Reply
    • August 23, 2019 at 1:12 am
      Permalink

      ‘b’ refers to bend. So 15b17 means you bend the 15th fret till you reach the 17th fret note. ‘r’ refers to release and is the opposite of bend – so you release the bent note

      Reply

Leave a Reply

Your email address will not be published. Required fields are marked *