Afreen Afreen (Coke Studio)

Artist – Rahat Fateh Ali Khan, Momina Mustehsan
Tuning – Eb tuning (Eb Ab Db Gb Bb Eb),
Tricky Chords – Asus4 (x02230),
Strumming throughout song –

Guitar 1 – Fingerpicking,
Guitar 2 – Arpeggios,

Strumming in the outro  –

Strumming 1 (D UDU D UDUDUDU),
Strumming 2 (DDD UDUD DDU),
Strumming 3 (DDxDDxDDxDD),

Capo – No

 

Guitar Cover (Rhythm + Lead)

 

Video tutorial (Rhythm)

 

Video tutorial (Lead)

 

(Intro Guitar Riff)

e|-------------------------------------|
B|------5-------7--------5-------------|
G|--/6----6/7------7\6------6\4----4/6-|
D|-------------------------------------|
A|-------------------------------------|
E|-------------------------------------|

 

e|-----------------------------------7-|
B|-------5----------7--------7/9-------|
G|--/6-------6/7-------7---------------|
D|-------------------------------------|
A|-------------------------------------|
E|-------------------------------------|

 

e|--------5-------------9------------2-|
B|--5--5----------10------------3------|
G|----6-----9/11-----11----2/4----4----|
D|-------------------------------------|
A|-------------------------------------|
E|-------------------------------------|

e|-------------------------------------|
B|--------------10--9------------------|
G|----------9--------------------------|
D|--------9----------------------------|
A|-----7-------------------------------|
E|-------------------------------------|

 

e|-------------------------------------|
B|-------------------------------------|
G|--/6--7--9--7--6-----6---------------|
D|------------------9------------------|
A|-------------------------------------|
E|-------------------------------------|

 

e|-------------------------------------|
B|------------------7--9---------------|
G|------/6--7--9----------9p7p6--7--6--|
D|-------------------------------------|
A|-------------------------------------|
E|-------------------------------------|

 

e|-------------------------------------|
B|-------------------------------------|
G|--6h7p6------------------------------|
D|----------9--7--9--------7--9--11--12|
A|-------------------7--9--------------|
E|-------------------------------------|


e|-------------------------------------| 
B|-----10--12---12/14------------------| 
G|-11----------------------------------| 
D|-------------------------------------| 
A|-------------------------------------| 
E|-------------------------------------|

e|-------------------------12----------|
B|---12---10--9--10--------------------|
G|-------------------------------------|
D|-------------------------------------|
A|-------------------------------------|
E|-------------------------------------|

 

(Harmony)

Guitar 1
e|----5---7----4---5-----2---4--0------|
B|-/5---5----x---5-----x---5-----------|
G|-------------------------------------|
D|-------------------------------------|
A|-------------------------------------|
E|-------------------------------------|

 

Guitar 2
e|-/9-x-10----x-7-x-9--x-5-x-7---x--4--|
B|-------------------------------------|
G|-------------------------------------|
D|-------------------------------------|
A|-------------------------------------|
E|-------------------------------------|

 

A Asus4 E A
A Asus4 E
A Asus4 E A
A Asus4 E
A A A A
A F#m Bm E
A
 

           E                              A
Aisaa dekhaa naheen Khubsoorat koi
           E                              A
Jism jaisee hai Ajantaa kee moorat koi
            A
Jism jaisee nigahoon pee jadu koi
              A
Jism naghma koi jism khushboo koi

 

           D                              A
Jism jaisee machaltee hui ragnee
           D                              A
Jism jaisee mehaktee hui chandni
           C#m      D           Bm        E
Jism jaisee keh khilta hua eik chaman
           C#m      D                Bm        E
Jism jaisee keh Sooraj kee pehlee kiran

 

          F#m                       Bm
Jism tershaa hoyaa Dikashooo Dilnasheen
         C#m              D                Bm                  E
Sandaleeeen sandaleen marmareeeeen marmareeeeen

 

                  A
Husnee Janaa Kee tareef mumkin naheeen
                 A
Husnee Janaa Kee tareef mumkin naheeen
        A            F#     Bm    E
Afreen Afreen Afreen Afreen
               A                              E
Tu bhee dakhee agar to kahee hamnsheeeen
        C#m     D     Bm     E
Afreen Afreen Afreeeen Afreeen

                  A
Husnee Janaa Kee tareef mumkin naheeen
                     A           F#m       Bm      E
Husnee Janaa Kee tareef mumkin naheeen

 

A F#m Bm E
A D A

 

A                                  F#m
Jane kaisi bandhi tune akhiyon ke dor
D                                        D         E
Mann mera khicha chala aaya teri aor
 A                                  C#
Mere chehre ki subah zulfon ki shaam

 

 F#m                                  D         E
Mera sab kuch hai piya ab se tere naam
Bm                              D
Nazron ne teri chhua toh hai ye jadoo hua
Bm                               E
Hone lagi hoon main haseen

 

A          F#m      A
Afreen afreen afreen
A          F#m      A
Afreen afreen afreen
Bm       C#m      D    E
Afreen afreen afreen
Bm       C#m      D    E
Afreen afreen afreen

 

(Guitar Harmony)
A E F#m E
A E F#m E
A C#m  F#m E
A C#m  F#m E

 

           E                              A
Chehra ik phool ki tarah shadaab hai
           E                              A
Chehra uska hai ya koi mahtaab hai
             F#m                           E     A
Chehra jaise ghazal chehra jaane ghazal
            F#m  A                   D     A
Chehra jaise kali chehra jaise kanwal

 

              D                           E
Chehra jaise tasavur bhi tasveer bhi
              D                           E
Chehra ik khwab bhi chehra tabeer bhi
         C#m    D        E
Chehra koi aliflailvi dastaan
         C#m         D                   E
Chehra ik pal yakeen chehra ik pal gumah

 

            F#m                       C#      D        Bm
Chehra jaisa ke chehra kahin bhi nahi..
        C#m         D         Bm          E
Mahrooh mahrooh mehjabin mehjabin

 

                  A             E             F#m
Husnee Janaa Kee tareef mumkin naheeen
                  A             E             D
Husnee Janaa Kee tareef mumkin naheeen
        A       F#m     Bm    E
Afreen Afreen Afreen Afreen
                    A                       E
Tu bhee dakhee agar to kahee hamnsheeeen
        C#m     D     Bm     E
Afreen Afreen Afreeeen Afreeen
                   A
Husnee Janaa Kee tareef mumkin naheeen

 
Strumming 1
A Asus4 E A
A Asus4 E
A Asus4 E A
A Asus4 E

Strumming 2
F#m E D E
F#m E D E
Bm C#m D E
Bm C#m D E
F#m E D E
F#m E D E
Bm C#m D E
Bm C#m D E

Strumming 3
F#m E F#m E
F#m E D A

Liked it? Take a second to support Adit on Patreon!

2 thoughts on “Afreen Afreen (Coke Studio)

  • April 1, 2019 at 4:41 pm
    Permalink

    Just perfect lesson and lots of hard work evident on this written tutorial and tabs. Thank you sooo much Sir.

    Reply
    • June 17, 2019 at 8:12 am
      Permalink

      Thanks Priyesh 🙂

      Reply

Leave a Reply

Your email address will not be published. Required fields are marked *